0
SECTION
2
HEADER
9
$INSUNITS
70
4
9
$ACADVER
1
AC1014
9
$HANDSEED
5
FFFF
0
ENDSEC
0
SECTION
2
TABLES
0
TABLE
2
VPORT
5
8
100
AcDbSymbolTable
0
ENDTAB
0
TABLE
2
LTYPE
5
5
100
AcDbSymbolTable
0
LTYPE
5
14
100
AcDbSymbolTableRecord
100
AcDbLinetypeTableRecord
2
BYBLOCK
70
0
0
LTYPE
5
15
100
AcDbSymbolTableRecord
100
AcDbLinetypeTableRecord
2
BYLAYER
70
0
0
ENDTAB
0
TABLE
2
LAYER
5
2
100
AcDbSymbolTable
70
2
0
LAYER
5
50
100
AcDbSymbolTableRecord
100
AcDbLayerTableRecord
2
0
70
0
6
CONTINUOUS
0
ENDTAB
0
TABLE
2
STYLE
5
3
100
AcDbSymbolTable
70
1
0
STYLE
5
11
100
AcDbSymbolTableRecord
100
AcDbTextStyleTableRecord
2
STANDARD
70
0
0
ENDTAB
0
TABLE
2
VIEW
5
6
100
AcDbSymbolTable
70
0
0
ENDTAB
0
TABLE
2
UCS
5
7
100
AcDbSymbolTable
70
0
0
ENDTAB
0
TABLE
2
APPID
5
9
100
AcDbSymbolTable
70
2
0
APPID
5
12
100
AcDbSymbolTableRecord
100
AcDbRegAppTableRecord
2
ACAD
70
0
0
ENDTAB
0
TABLE
2
DIMSTYLE
5
A
100
AcDbSymbolTable
70
1
0
ENDTAB
0
TABLE
2
BLOCK_RECORD
5
1
100
AcDbSymbolTable
70
1
0
BLOCK_RECORD
5
1F
100
AcDbSymbolTableRecord
100
AcDbBlockTableRecord
2
*MODEL_SPACE
0
BLOCK_RECORD
5
1B
100
AcDbSymbolTableRecord
100
AcDbBlockTableRecord
2
*PAPER_SPACE
0
ENDTAB
0
ENDSEC
0
SECTION
2
BLOCKS
0
BLOCK
5
20
100
AcDbEntity
100
AcDbBlockBegin
2
*MODEL_SPACE
0
ENDBLK
5
21
100
AcDbEntity
100
AcDbBlockEnd
0
BLOCK
5
1C
100
AcDbEntity
100
AcDbBlockBegin
2
*PAPER_SPACE
0
ENDBLK
5
1D
100
AcDbEntity
100
AcDbBlockEnd
0
ENDSEC
0
SECTION
2
ENTITIES
0
LWPOLYLINE
5
100
100
AcDbEntity
8
0
100
AcDbPolyline
90
4
70
1
43
0.0
10
-89.25
20
-29.058
10
177.12400000000002
20
-29.057999999999996
10
177.12400000000002
20
19.250000000000004
10
-89.25
20
19.250000000000004
0
LINE
5
101
100
AcDbEntity
8
0
100
AcDbLine
10
-74
20
10.000000111758711
30
0
11
-74
21
-5.0000001117587072
31
0
0
LINE
5
102
100
AcDbEntity
8
0
100
AcDbLine
10
-74
20
2.5000000000000022
30
0
11
-63.999999850988388
21
2.5000000000000022
31
0
0
CIRCLE
5
103
100
AcDbEntity
8
0
100
AcDbCircle
10
-65.5
20
12.500000000000002
30
0
40
1.7500000000000016
0
CIRCLE
5
104
100
AcDbEntity
8
0
100
AcDbCircle
10
-82.5
20
12.500000000000002
30
0
40
1.7500000000000016
0
CIRCLE
5
105
100
AcDbEntity
8
0
100
AcDbCircle
10
-65.5
20
-7.4999999999999982
30
0
40
1.7500000000000016
0
CIRCLE
5
106
100
AcDbEntity
8
0
100
AcDbCircle
10
-82.5
20
-7.4999999999999982
30
0
40
1.7500000000000016
0
LINE
5
107
100
AcDbEntity
8
0
100
AcDbLine
10
160.47400000000005
20
-7.6388856721523757
30
0
11
160.47400000000005
21
-20.037114327847622
31
0
0
LINE
5
108
100
AcDbEntity
8
0
100
AcDbLine
10
160.47400000000005
20
-13.837999999999999
30
0
11
110.80220502465414
21
-13.837999999999999
31
0
0
CIRCLE
5
109
100
AcDbEntity
8
0
100
AcDbCircle
10
170.47400000000005
20
-5.3379999999999983
30
0
40
1.7500000000000044
0
CIRCLE
5
110
100
AcDbEntity
8
0
100
AcDbCircle
10
170.47400000000005
20
-22.338000000000001
30
0
40
1.7500000000000044
0
CIRCLE
5
111
100
AcDbEntity
8
0
100
AcDbCircle
10
150.47400000000005
20
-5.3379999999999983
30
0
40
1.7500000000000044
0
CIRCLE
5
112
100
AcDbEntity
8
0
100
AcDbCircle
10
150.47400000000005
20
-22.338000000000001
30
0
40
1.7500000000000044
0
LINE
5
113
100
AcDbEntity
8
0
100
AcDbLine
10
121.15000000000002
20
2.5000000000000022
30
0
11
82.000001221895218
21
2.5000000000000022
31
0
0
LINE
5
114
100
AcDbEntity
8
0
100
AcDbLine
10
160.47400000000005
20
-13.837999999999999
30
0
11
160.47400000000005
21
19.250000000000011
31
0
0
LINE
5
115
100
AcDbEntity
8
0
100
AcDbLine
10
-84.249999086858537
20
12.501787734401731
30
0
11
-84.26575170299914
21
-2.9183237961854624
31
0
0
ENDSEC
0
SECTION
2
OBJECTS
0
DICTIONARY
5
C
100
AcDbDictionary
3
ACAD_GROUP
350
D
3
ACAD_MLINESTYLE
350
17
0
DICTIONARY
5
D
100
AcDbDictionary
0
DICTIONARY
5
1A
330
C
100
AcDbDictionary
0
DICTIONARY
5
17
100
AcDbDictionary
0
ENDSEC
0
EOF
