0
SECTION
2
HEADER
9
$INSUNITS
70
4
9
$ACADVER
1
AC1014
9
$HANDSEED
5
FFFF
0
ENDSEC
0
SECTION
2
TABLES
0
TABLE
2
VPORT
5
8
100
AcDbSymbolTable
0
ENDTAB
0
TABLE
2
LTYPE
5
5
100
AcDbSymbolTable
0
LTYPE
5
14
100
AcDbSymbolTableRecord
100
AcDbLinetypeTableRecord
2
BYBLOCK
70
0
0
LTYPE
5
15
100
AcDbSymbolTableRecord
100
AcDbLinetypeTableRecord
2
BYLAYER
70
0
0
ENDTAB
0
TABLE
2
LAYER
5
2
100
AcDbSymbolTable
70
2
0
LAYER
5
50
100
AcDbSymbolTableRecord
100
AcDbLayerTableRecord
2
0
70
0
6
CONTINUOUS
0
ENDTAB
0
TABLE
2
STYLE
5
3
100
AcDbSymbolTable
70
1
0
STYLE
5
11
100
AcDbSymbolTableRecord
100
AcDbTextStyleTableRecord
2
STANDARD
70
0
0
ENDTAB
0
TABLE
2
VIEW
5
6
100
AcDbSymbolTable
70
0
0
ENDTAB
0
TABLE
2
UCS
5
7
100
AcDbSymbolTable
70
0
0
ENDTAB
0
TABLE
2
APPID
5
9
100
AcDbSymbolTable
70
2
0
APPID
5
12
100
AcDbSymbolTableRecord
100
AcDbRegAppTableRecord
2
ACAD
70
0
0
ENDTAB
0
TABLE
2
DIMSTYLE
5
A
100
AcDbSymbolTable
70
1
0
ENDTAB
0
TABLE
2
BLOCK_RECORD
5
1
100
AcDbSymbolTable
70
1
0
BLOCK_RECORD
5
1F
100
AcDbSymbolTableRecord
100
AcDbBlockTableRecord
2
*MODEL_SPACE
0
BLOCK_RECORD
5
1B
100
AcDbSymbolTableRecord
100
AcDbBlockTableRecord
2
*PAPER_SPACE
0
ENDTAB
0
ENDSEC
0
SECTION
2
BLOCKS
0
BLOCK
5
20
100
AcDbEntity
100
AcDbBlockBegin
2
*MODEL_SPACE
0
ENDBLK
5
21
100
AcDbEntity
100
AcDbBlockEnd
0
BLOCK
5
1C
100
AcDbEntity
100
AcDbBlockBegin
2
*PAPER_SPACE
0
ENDBLK
5
1D
100
AcDbEntity
100
AcDbBlockEnd
0
ENDSEC
0
SECTION
2
ENTITIES
0
LWPOLYLINE
5
100
100
AcDbEntity
8
0
100
AcDbPolyline
90
40
70
1
43
0.0
10
-35.17499999999999
20
-140.5
10
-35.17499999999999
20
140.5
10
-24.000000000000004
20
140.5
10
-24.000000000000004
20
143.67500000000001
10
-19.000000000000004
20
143.67500000000001
10
-19.000000000000004
20
140.5
10
-13.750000000000002
20
140.5
10
-13.750000000000002
20
134
10
-15.000000000000002
20
134
10
-15.000000000000002
20
130.5
10
-13.750000000000002
20
130.5
10
-13.750000000000002
20
126.5
10
-10.250000000000002
20
126.5
10
-10.250000000000002
20
130.5
10
-9.0000000000000018
20
130.5
10
-9.0000000000000018
20
134
10
-10.250000000000002
20
134
10
-10.250000000000002
20
140.5
10
-4
20
140.5
10
-4
20
143.67500000000001
10
4
20
143.67500000000001
10
4
20
140.5
10
10.250000000000002
20
140.5
10
10.250000000000002
20
134
10
9.0000000000000018
20
134
10
9.0000000000000018
20
130.5
10
10.250000000000002
20
130.5
10
10.250000000000002
20
126.5
10
13.750000000000002
20
126.5
10
13.750000000000002
20
130.5
10
15.000000000000002
20
130.5
10
15.000000000000002
20
134
10
13.750000000000002
20
134
10
13.750000000000002
20
140.5
10
19.000000000000004
20
140.5
10
19.000000000000004
20
143.67500000000001
10
24.000000000000004
20
143.67500000000001
10
24.000000000000004
20
140.5
10
35.17499999999999
20
140.5
10
35.17499999999999
20
-140.5
0
LWPOLYLINE
5
101
100
AcDbEntity
8
0
100
AcDbPolyline
90
4
70
1
43
0.0
10
-30.17499999999999
20
-4
10
-26.999999999999993
20
-4
10
-26.999999999999993
20
4
10
-30.17499999999999
20
4
0
CIRCLE
5
102
100
AcDbEntity
8
0
100
AcDbCircle
10
-28.424999999999994
20
22
30
0
40
1.7500000000000013
0
CIRCLE
5
103
100
AcDbEntity
8
0
100
AcDbCircle
10
-28.424999999999994
20
66
30
0
40
1.7500000000000013
0
LWPOLYLINE
5
104
100
AcDbEntity
8
0
100
AcDbPolyline
90
4
70
1
43
0.0
10
-26.999999999999993
20
40
10
-26.999999999999993
20
48.000000000000007
10
-30.17499999999999
20
48.000000000000007
10
-30.17499999999999
20
40
0
CIRCLE
5
105
100
AcDbEntity
8
0
100
AcDbCircle
10
-28.424999999999994
20
110
30
0
40
1.7500000000000013
0
LWPOLYLINE
5
106
100
AcDbEntity
8
0
100
AcDbPolyline
90
4
70
1
43
0.0
10
-26.999999999999993
20
84
10
-26.999999999999993
20
92.000000000000014
10
-30.17499999999999
20
92.000000000000014
10
-30.17499999999999
20
84
0
CIRCLE
5
107
100
AcDbEntity
8
0
100
AcDbCircle
10
-28.424999999999994
20
-110
30
0
40
1.7500000000000013
0
LWPOLYLINE
5
108
100
AcDbEntity
8
0
100
AcDbPolyline
90
4
70
1
43
0.0
10
-26.999999999999993
20
-92.000000000000014
10
-30.17499999999999
20
-92.000000000000014
10
-30.17499999999999
20
-84
10
-26.999999999999993
20
-84
0
LWPOLYLINE
5
109
100
AcDbEntity
8
0
100
AcDbPolyline
90
4
70
1
43
0.0
10
-26.999999999999993
20
-40
10
-26.999999999999993
20
-48.000000000000007
10
-30.17499999999999
20
-48.000000000000007
10
-30.17499999999999
20
-40
0
CIRCLE
5
110
100
AcDbEntity
8
0
100
AcDbCircle
10
-28.424999999999994
20
-22
30
0
40
1.7500000000000013
0
CIRCLE
5
111
100
AcDbEntity
8
0
100
AcDbCircle
10
-28.424999999999994
20
-66
30
0
40
1.7500000000000013
0
LWPOLYLINE
5
112
100
AcDbEntity
8
0
100
AcDbPolyline
90
4
70
1
43
0.0
10
-26.999999999999993
20
-128
10
-30.17499999999999
20
-128
10
-30.17499999999999
20
-136
10
-26.999999999999993
20
-136
0
LWPOLYLINE
5
113
100
AcDbEntity
8
0
100
AcDbPolyline
90
4
70
1
43
0.0
10
26.999999999999993
20
92.000000000000014
10
30.17499999999999
20
92.000000000000014
10
30.17499999999999
20
84
10
26.999999999999993
20
84
0
CIRCLE
5
114
100
AcDbEntity
8
0
100
AcDbCircle
10
28.424999999999994
20
21.999999999999993
30
0
40
1.7500000000000013
0
LWPOLYLINE
5
115
100
AcDbEntity
8
0
100
AcDbPolyline
90
4
70
1
43
0.0
10
30.17499999999999
20
4.0000000000000036
10
30.17499999999999
20
-4.0000000000000036
10
26.999999999999993
20
-4.0000000000000036
10
26.999999999999993
20
4.0000000000000036
0
CIRCLE
5
116
100
AcDbEntity
8
0
100
AcDbCircle
10
28.424999999999994
20
66
30
0
40
1.7500000000000013
0
LWPOLYLINE
5
117
100
AcDbEntity
8
0
100
AcDbPolyline
90
4
70
1
43
0.0
10
26.999999999999993
20
40
10
26.999999999999993
20
48.000000000000007
10
30.17499999999999
20
48.000000000000007
10
30.17499999999999
20
40
0
CIRCLE
5
118
100
AcDbEntity
8
0
100
AcDbCircle
10
28.424999999999994
20
-21.999999999999993
30
0
40
1.7500000000000013
0
CIRCLE
5
119
100
AcDbEntity
8
0
100
AcDbCircle
10
28.424999999999994
20
110
30
0
40
1.7500000000000013
0
LWPOLYLINE
5
120
100
AcDbEntity
8
0
100
AcDbPolyline
90
4
70
1
43
0.0
10
30.17499999999999
20
-136
10
26.999999999999993
20
-136
10
26.999999999999993
20
-128
10
30.17499999999999
20
-128
0
CIRCLE
5
121
100
AcDbEntity
8
0
100
AcDbCircle
10
28.424999999999994
20
-66.000000000000014
30
0
40
1.7500000000000013
0
CIRCLE
5
122
100
AcDbEntity
8
0
100
AcDbCircle
10
28.424999999999994
20
-110
30
0
40
1.7500000000000013
0
LWPOLYLINE
5
123
100
AcDbEntity
8
0
100
AcDbPolyline
90
4
70
1
43
0.0
10
30.17499999999999
20
-40
10
26.999999999999993
20
-40
10
26.999999999999993
20
-48.000000000000007
10
30.17499999999999
20
-48.000000000000007
0
LWPOLYLINE
5
124
100
AcDbEntity
8
0
100
AcDbPolyline
90
4
70
1
43
0.0
10
26.999999999999993
20
-92.000000000000028
10
30.17499999999999
20
-92.000000000000028
10
30.17499999999999
20
-83.999999999999986
10
26.999999999999993
20
-83.999999999999986
0
ENDSEC
0
SECTION
2
OBJECTS
0
DICTIONARY
5
C
100
AcDbDictionary
3
ACAD_GROUP
350
D
3
ACAD_MLINESTYLE
350
17
0
DICTIONARY
5
D
100
AcDbDictionary
0
DICTIONARY
5
1A
330
C
100
AcDbDictionary
0
DICTIONARY
5
17
100
AcDbDictionary
0
ENDSEC
0
EOF
