0
SECTION
2
HEADER
9
$INSUNITS
70
4
9
$ACADVER
1
AC1014
9
$HANDSEED
5
FFFF
0
ENDSEC
0
SECTION
2
TABLES
0
TABLE
2
VPORT
5
8
100
AcDbSymbolTable
0
ENDTAB
0
TABLE
2
LTYPE
5
5
100
AcDbSymbolTable
0
LTYPE
5
14
100
AcDbSymbolTableRecord
100
AcDbLinetypeTableRecord
2
BYBLOCK
70
0
0
LTYPE
5
15
100
AcDbSymbolTableRecord
100
AcDbLinetypeTableRecord
2
BYLAYER
70
0
0
ENDTAB
0
TABLE
2
LAYER
5
2
100
AcDbSymbolTable
70
2
0
LAYER
5
50
100
AcDbSymbolTableRecord
100
AcDbLayerTableRecord
2
0
70
0
6
CONTINUOUS
0
ENDTAB
0
TABLE
2
STYLE
5
3
100
AcDbSymbolTable
70
1
0
STYLE
5
11
100
AcDbSymbolTableRecord
100
AcDbTextStyleTableRecord
2
STANDARD
70
0
0
ENDTAB
0
TABLE
2
VIEW
5
6
100
AcDbSymbolTable
70
0
0
ENDTAB
0
TABLE
2
UCS
5
7
100
AcDbSymbolTable
70
0
0
ENDTAB
0
TABLE
2
APPID
5
9
100
AcDbSymbolTable
70
2
0
APPID
5
12
100
AcDbSymbolTableRecord
100
AcDbRegAppTableRecord
2
ACAD
70
0
0
ENDTAB
0
TABLE
2
DIMSTYLE
5
A
100
AcDbSymbolTable
70
1
0
ENDTAB
0
TABLE
2
BLOCK_RECORD
5
1
100
AcDbSymbolTable
70
1
0
BLOCK_RECORD
5
1F
100
AcDbSymbolTableRecord
100
AcDbBlockTableRecord
2
*MODEL_SPACE
0
BLOCK_RECORD
5
1B
100
AcDbSymbolTableRecord
100
AcDbBlockTableRecord
2
*PAPER_SPACE
0
ENDTAB
0
ENDSEC
0
SECTION
2
BLOCKS
0
BLOCK
5
20
100
AcDbEntity
100
AcDbBlockBegin
2
*MODEL_SPACE
0
ENDBLK
5
21
100
AcDbEntity
100
AcDbBlockEnd
0
BLOCK
5
1C
100
AcDbEntity
100
AcDbBlockBegin
2
*PAPER_SPACE
0
ENDBLK
5
1D
100
AcDbEntity
100
AcDbBlockEnd
0
ENDSEC
0
SECTION
2
ENTITIES
0
LWPOLYLINE
5
100
100
AcDbEntity
8
0
100
AcDbPolyline
90
4
70
1
43
0.0
10
45.874500000000005
20
-31.587499999999995
10
45.874500000000005
20
-26.587499999999995
10
42.699500000000015
20
-26.587499999999995
10
42.699500000000015
20
-31.587499999999995
0
LWPOLYLINE
5
101
100
AcDbEntity
8
0
100
AcDbPolyline
90
4
70
1
43
0.0
10
45.874500000000005
20
-71.587499999999991
10
45.874500000000005
20
-66.587499999999991
10
42.699500000000015
20
-66.587499999999991
10
42.699500000000015
20
-71.587499999999991
0
LWPOLYLINE
5
102
100
AcDbEntity
8
0
100
AcDbPolyline
90
5
70
1
43
0.0
10
142.15737520964458
20
-27.000000000000014
42
-13.965891991407883
10
145.32400000000001
20
-27.498999955551618
10
145.32400000000001
20
-30.175000000000015
10
140.32400000000001
20
-30.175000000000015
10
140.32400000000001
20
-27.000000000000014
0
CIRCLE
5
103
100
AcDbEntity
8
0
100
AcDbCircle
10
129.97399999999999
20
-31.750000000000014
30
0
40
1.7500000000000016
0
CIRCLE
5
104
100
AcDbEntity
8
0
100
AcDbCircle
10
160.97399999999999
20
-0.75000000000001454
30
0
40
1.7500000000000016
0
CIRCLE
5
105
100
AcDbEntity
8
0
100
AcDbCircle
10
-91.499999999999986
20
10
30
0
40
1.7500000000000024
0
CIRCLE
5
106
100
AcDbEntity
8
0
100
AcDbCircle
10
-91.499999999999986
20
-10
30
0
40
1.7500000000000024
0
CIRCLE
5
107
100
AcDbEntity
8
0
100
AcDbCircle
10
-66.925999999999988
20
-28.587499999999988
30
0
40
1.7500000000000004
0
LWPOLYLINE
5
108
100
AcDbEntity
8
0
100
AcDbPolyline
90
4
70
1
43
0.0
10
187.07400000000001
20
-141.58750000000001
10
187.07400000000001
20
141.58750000000001
10
-98.500000000000014
20
141.58750000000001
10
-98.500000000000014
20
-141.58750000000001
0
CIRCLE
5
109
100
AcDbEntity
8
0
100
AcDbCircle
10
-91.926000000000002
20
-28.587499999999999
30
0
40
1.7499999999999973
0
LWPOLYLINE
5
110
100
AcDbEntity
8
0
100
AcDbPolyline
90
4
70
1
43
0.0
10
170.32400000000001
20
-30.175000000000001
10
170.32400000000001
20
-27
10
165.32400000000001
20
-27
10
165.32400000000001
20
-30.175000000000001
0
CIRCLE
5
111
100
AcDbEntity
8
0
100
AcDbCircle
10
13.436500000000011
20
-119.99250000000001
30
0
40
1.7500000000000027
0
LWPOLYLINE
5
112
100
AcDbEntity
8
0
100
AcDbPolyline
90
4
70
1
43
0.0
10
45.874500000000005
20
-51.587499999999991
10
45.874500000000005
20
-46.587499999999991
10
42.699500000000015
20
-46.587499999999991
10
42.699500000000015
20
-51.587499999999991
0
CIRCLE
5
113
100
AcDbEntity
8
0
100
AcDbCircle
10
-74.5
20
10
30
0
40
1.7500000000000024
0
LINE
5
114
100
AcDbEntity
8
0
100
AcDbLine
10
45.874500000000005
20
-66.587499999999991
30
0
11
45.874500000000005
21
-71.587499999999991
31
0
0
LINE
5
115
100
AcDbEntity
8
0
100
AcDbLine
10
45.874500000000005
20
-46.587499999999991
30
0
11
45.874500000000005
21
-51.587499999999991
31
0
0
LINE
5
116
100
AcDbEntity
8
0
100
AcDbLine
10
42.699500000000015
20
-71.587499999999991
30
0
11
42.699500000000015
21
-66.587499999999991
31
0
0
LINE
5
117
100
AcDbEntity
8
0
100
AcDbLine
10
42.699500000000015
20
-51.587499999999991
30
0
11
42.699500000000015
21
-46.587499999999991
31
0
0
CIRCLE
5
118
100
AcDbEntity
8
0
100
AcDbCircle
10
129.97399999999999
20
-0.75000000000001454
30
0
40
1.7500000000000016
0
CIRCLE
5
119
100
AcDbEntity
8
0
100
AcDbCircle
10
75.137500000000017
20
-119.99250000000001
30
0
40
1.7500000000000027
0
CIRCLE
5
120
100
AcDbEntity
8
0
100
AcDbCircle
10
75.137500000000017
20
-101.18049999999999
30
0
40
1.7500000000000027
0
CIRCLE
5
121
100
AcDbEntity
8
0
100
AcDbCircle
10
13.436500000000017
20
-101.18049999999999
30
0
40
1.7500000000000027
0
CIRCLE
5
122
100
AcDbEntity
8
0
100
AcDbCircle
10
155.32400000000001
20
-28.587499999999999
30
0
40
1.7500000000000004
0
CIRCLE
5
123
100
AcDbEntity
8
0
100
AcDbCircle
10
160.97399999999999
20
-31.750000000000014
30
0
40
1.7500000000000016
0
CIRCLE
5
124
100
AcDbEntity
8
0
100
AcDbCircle
10
180.32400000000001
20
-28.587500000000002
30
0
40
1.7499999999999973
0
LWPOLYLINE
5
125
100
AcDbEntity
8
0
100
AcDbPolyline
90
4
70
1
43
0.0
10
-76.926000000000002
20
-30.17499999999999
10
-81.926000000000002
20
-30.17499999999999
10
-81.926000000000002
20
-26.999999999999993
10
-76.925999999999988
20
-26.999999999999993
0
LWPOLYLINE
5
126
100
AcDbEntity
8
0
100
AcDbPolyline
90
4
70
1
43
0.0
10
-56.926000000000002
20
-30.175000000000011
10
-51.926000000000002
20
-30.175000000000011
10
-51.925999999999988
20
-27
10
-56.925999999999988
20
-27
0
LWPOLYLINE
5
127
100
AcDbEntity
8
0
100
AcDbPolyline
90
4
70
1
43
0.0
10
45.874500000000005
20
8.412500000000005
10
45.874500000000005
20
13.412500000000005
10
42.699500000000015
20
13.412500000000005
10
42.699500000000015
20
8.412500000000005
0
LWPOLYLINE
5
128
100
AcDbEntity
8
0
100
AcDbPolyline
90
4
70
1
43
0.0
10
45.874500000000005
20
-11.587499999999995
10
45.874500000000005
20
-6.587499999999995
10
42.699500000000015
20
-6.587499999999995
10
42.699500000000015
20
-11.587499999999995
0
CIRCLE
5
129
100
AcDbEntity
8
0
100
AcDbCircle
10
-74.5
20
-10
30
0
40
1.7500000000000024
0
LWPOLYLINE
5
130
100
AcDbEntity
8
0
100
AcDbPolyline
90
4
70
1
43
0.0
10
140.32400000000001
20
30.175000000000015
10
140.32400000000004
20
26.999999999999837
10
145.32400000000001
20
27.000000000000014
10
145.32400000000001
20
30.175000000000015
0
LINE
5
131
100
AcDbEntity
8
0
100
AcDbLine
10
42.699500000000015
20
-31.587499999999995
30
0
11
42.699500000000015
21
-26.587499999999995
31
0
0
LINE
5
132
100
AcDbEntity
8
0
100
AcDbLine
10
45.874500000000005
20
13.412500000000005
30
0
11
45.874500000000005
21
8.412500000000005
31
0
0
LINE
5
133
100
AcDbEntity
8
0
100
AcDbLine
10
42.699500000000015
20
-11.587499999999995
30
0
11
42.699500000000015
21
-6.587499999999995
31
0
0
LINE
5
134
100
AcDbEntity
8
0
100
AcDbLine
10
45.874500000000005
20
-6.587499999999995
30
0
11
45.874500000000005
21
-11.587499999999995
31
0
0
LINE
5
135
100
AcDbEntity
8
0
100
AcDbLine
10
45.874500000000005
20
-26.587499999999995
30
0
11
45.874500000000005
21
-31.587499999999995
31
0
0
LINE
5
136
100
AcDbEntity
8
0
100
AcDbLine
10
42.699500000000015
20
8.412500000000005
30
0
11
42.699500000000015
21
13.412500000000005
31
0
0
LWPOLYLINE
5
137
100
AcDbEntity
8
0
100
AcDbPolyline
90
4
70
1
43
0.0
10
42.699500000000015
20
113.41250000000001
10
42.699500000000015
20
108.41250000000001
10
45.874500000000005
20
108.41250000000001
10
45.874500000000005
20
113.41250000000001
0
LWPOLYLINE
5
138
100
AcDbEntity
8
0
100
AcDbPolyline
90
4
70
1
43
0.0
10
42.699500000000015
20
53.412500000000009
10
42.699500000000015
20
48.412500000000009
10
45.874500000000005
20
48.412500000000009
10
45.874500000000005
20
53.412500000000009
0
LWPOLYLINE
5
139
100
AcDbEntity
8
0
100
AcDbPolyline
90
4
70
1
43
0.0
10
42.699500000000015
20
73.412500000000009
10
42.699500000000015
20
68.412500000000009
10
45.874500000000005
20
68.412500000000009
10
45.874500000000005
20
73.412500000000009
0
LWPOLYLINE
5
140
100
AcDbEntity
8
0
100
AcDbPolyline
90
4
70
1
43
0.0
10
42.699500000000015
20
33.412500000000009
10
42.699500000000015
20
28.412500000000005
10
45.874500000000005
20
28.412500000000005
10
45.874500000000005
20
33.412500000000009
0
LWPOLYLINE
5
141
100
AcDbEntity
8
0
100
AcDbPolyline
90
4
70
1
43
0.0
10
42.699500000000015
20
88.412500000000009
10
45.874500000000005
20
88.412500000000009
10
45.874500000000005
20
93.412500000000009
10
42.699500000000015
20
93.412500000000009
0
LINE
5
142
100
AcDbEntity
8
0
100
AcDbLine
10
42.699500000000015
20
48.412500000000009
30
0
11
42.699500000000015
21
53.412500000000009
31
0
0
LINE
5
143
100
AcDbEntity
8
0
100
AcDbLine
10
42.699500000000015
20
108.41250000000001
30
0
11
42.699500000000015
21
113.41250000000001
31
0
0
LINE
5
144
100
AcDbEntity
8
0
100
AcDbLine
10
42.699500000000015
20
68.412500000000009
30
0
11
42.699500000000015
21
73.412500000000009
31
0
0
LINE
5
145
100
AcDbEntity
8
0
100
AcDbLine
10
45.874500000000005
20
53.412500000000009
30
0
11
45.874500000000005
21
48.412500000000009
31
0
0
LINE
5
146
100
AcDbEntity
8
0
100
AcDbLine
10
45.874500000000005
20
113.41250000000001
30
0
11
45.874500000000005
21
108.41250000000001
31
0
0
CIRCLE
5
147
100
AcDbEntity
8
0
100
AcDbCircle
10
180.32400000000001
20
28.587500000000002
30
0
40
1.7499999999999973
0
CIRCLE
5
148
100
AcDbEntity
8
0
100
AcDbCircle
10
155.32400000000001
20
28.587499999999999
30
0
40
1.7500000000000004
0
LWPOLYLINE
5
149
100
AcDbEntity
8
0
100
AcDbPolyline
90
4
70
1
43
0.0
10
170.32400000000001
20
30.175000000000001
10
170.32400000000001
20
27
10
165.32400000000001
20
27
10
165.32399999999996
20
30.175000000000217
0
LWPOLYLINE
5
150
100
AcDbEntity
8
0
100
AcDbPolyline
90
4
70
1
43
0.0
10
-79.000000000000043
20
123
10
-74.000000000000043
20
123
10
-74.000000000000043
20
126.175
10
-79.000000000000043
20
126.175
0
LWPOLYLINE
5
151
100
AcDbEntity
8
0
100
AcDbPolyline
90
4
70
1
43
0.0
10
-81.412499999999994
20
133.58750000000001
10
-84.58750000000002
20
133.58750000000001
10
-84.58750000000002
20
128.58750000000001
10
-81.412499999999994
20
128.58750000000001
0
LWPOLYLINE
5
152
100
AcDbEntity
8
0
100
AcDbPolyline
90
4
70
1
43
0.0
10
-56.925999999999988
20
30.175000000000018
10
-51.925999999999988
20
30.175000000000018
10
-51.925999999999988
20
27.000000000000011
10
-56.925999999999988
20
27.000000000000011
0
CIRCLE
5
153
100
AcDbEntity
8
0
100
AcDbCircle
10
-91.926000000000002
20
28.587500000000023
30
0
40
1.7499999999999973
0
CIRCLE
5
154
100
AcDbEntity
8
0
100
AcDbCircle
10
-83
20
118.83750000000001
30
0
40
1.749999999999994
0
CIRCLE
5
155
100
AcDbEntity
8
0
100
AcDbCircle
10
29.287000000000024
20
136.05420109243505
30
0
40
1.7499999999999956
0
LWPOLYLINE
5
156
100
AcDbEntity
8
0
100
AcDbPolyline
90
4
70
1
43
0.0
10
-81.926000000000002
20
27.000000000000011
10
-76.925999999999988
20
27.000000000000011
10
-76.925999999999988
20
30.175000000000018
10
-81.926000000000002
20
30.175000000000018
0
CIRCLE
5
157
100
AcDbEntity
8
0
100
AcDbCircle
10
59.287000000000027
20
136.05420109243508
30
0
40
1.7499999999999956
0
LWPOLYLINE
5
158
100
AcDbEntity
8
0
100
AcDbPolyline
90
4
70
1
43
0.0
10
61.787000000000027
20
128.41249999999999
10
56.787000000000027
20
128.41249999999999
10
56.787000000000027
20
131.58750000000001
10
61.787000000000027
20
131.58750000000001
0
CIRCLE
5
159
100
AcDbEntity
8
0
100
AcDbCircle
10
-66.925999999999988
20
28.587500000000006
30
0
40
1.7500000000000004
0
CIRCLE
5
160
100
AcDbEntity
8
0
100
AcDbCircle
10
-88.750000000000014
20
124.58750000000001
30
0
40
1.7500000000000084
0
LINE
5
161
100
AcDbEntity
8
0
100
AcDbLine
10
-83
20
120.58750000000001
30
0
11
-83
21
120.50000181794164
31
0
0
LWPOLYLINE
5
162
100
AcDbEntity
8
0
100
AcDbPolyline
90
4
70
1
43
0.0
10
31.787000000000024
20
128.41249999999999
10
31.787000000000024
20
131.58750000000001
10
26.787000000000024
20
131.58750000000001
10
26.787000000000024
20
128.41249999999999
0
LINE
5
163
100
AcDbEntity
8
0
100
AcDbLine
10
42.699500000000015
20
88.412500000000009
30
0
11
42.699500000000015
21
93.412500000000009
31
0
0
LINE
5
164
100
AcDbEntity
8
0
100
AcDbLine
10
45.874500000000005
20
93.412500000000009
30
0
11
45.874500000000005
21
88.412500000000009
31
0
0
LINE
5
165
100
AcDbEntity
8
0
100
AcDbLine
10
171.57399999999998
20
120.58750000000001
30
0
11
171.57399999999998
21
120.50000181794164
31
0
0
LWPOLYLINE
5
166
100
AcDbEntity
8
0
100
AcDbPolyline
90
4
70
1
43
0.0
10
173.16149999999999
20
133.58750000000001
10
173.16149999999999
20
128.58750000000001
10
169.98649999999998
20
128.58750000000001
10
169.98649999999998
20
133.58750000000001
0
LWPOLYLINE
5
167
100
AcDbEntity
8
0
100
AcDbPolyline
90
4
70
1
43
0.0
10
162.57400000000004
20
123
10
162.57400000000004
20
126.175
10
167.57400000000004
20
126.175
10
167.57400000000004
20
123
0
CIRCLE
5
168
100
AcDbEntity
8
0
100
AcDbCircle
10
171.57399999999998
20
118.83750000000001
30
0
40
1.749999999999994
0
CIRCLE
5
169
100
AcDbEntity
8
0
100
AcDbCircle
10
177.32399999999998
20
124.58750000000001
30
0
40
1.7500000000000084
0
LWPOLYLINE
5
170
100
AcDbEntity
8
0
100
AcDbPolyline
90
4
70
1
43
0.0
10
167.57400000000004
20
-123
10
162.57400000000004
20
-123
10
162.57400000000004
20
-126.175
10
167.57400000000004
20
-126.175
0
LWPOLYLINE
5
171
100
AcDbEntity
8
0
100
AcDbPolyline
90
4
70
1
43
0.0
10
173.16149999999999
20
-128.58750000000001
10
169.98649999999998
20
-128.58750000000001
10
169.98649999999998
20
-133.58750000000001
10
173.16149999999999
20
-133.58750000000001
0
CIRCLE
5
172
100
AcDbEntity
8
0
100
AcDbCircle
10
177.32399999999998
20
-124.58750000000001
30
0
40
1.7500000000000084
0
CIRCLE
5
173
100
AcDbEntity
8
0
100
AcDbCircle
10
171.57399999999998
20
-118.83750000000001
30
0
40
1.749999999999994
0
LINE
5
174
100
AcDbEntity
8
0
100
AcDbLine
10
171.57399999999998
20
-120.58750000000001
30
0
11
171.57399999999998
21
-120.50000181794164
31
0
0
LWPOLYLINE
5
175
100
AcDbEntity
8
0
100
AcDbPolyline
90
4
70
1
43
0.0
10
-84.58750000000002
20
-133.58750000000001
10
-84.58750000000002
20
-128.58750000000001
10
-81.412499999999994
20
-128.58750000000001
10
-81.412499999999994
20
-133.58750000000001
0
CIRCLE
5
176
100
AcDbEntity
8
0
100
AcDbCircle
10
-83
20
-118.83750000000001
30
0
40
1.749999999999994
0
LINE
5
177
100
AcDbEntity
8
0
100
AcDbLine
10
-83
20
-120.58750000000001
30
0
11
-83
21
-120.50000181794164
31
0
0
CIRCLE
5
178
100
AcDbEntity
8
0
100
AcDbCircle
10
-88.750000000000014
20
-124.58750000000001
30
0
40
1.7500000000000084
0
LWPOLYLINE
5
179
100
AcDbEntity
8
0
100
AcDbPolyline
90
4
70
1
43
0.0
10
-79.000000000000043
20
-123
10
-74.000000000000043
20
-123
10
-74.000000000000043
20
-126.175
10
-79.000000000000043
20
-126.175
0
LINE
5
180
100
AcDbEntity
8
0
100
AcDbLine
10
-91.499999999999986
20
10
30
0
11
-74.5
21
-10
31
0
0
LINE
5
181
100
AcDbEntity
8
0
100
AcDbLine
10
-74.5
20
-10
30
0
11
-91.499999999999986
21
-10
31
0
0
LINE
5
182
100
AcDbEntity
8
0
100
AcDbLine
10
-91.499999999999986
20
-10
30
0
11
-74.5
21
10
31
0
0
LINE
5
183
100
AcDbEntity
8
0
100
AcDbLine
10
129.97399999999999
20
-0.75000000000001454
30
0
11
160.97399999999999
21
-31.750000000000014
31
0
0
LINE
5
184
100
AcDbEntity
8
0
100
AcDbLine
10
129.97399999999999
20
-31.750000000000014
30
0
11
160.97399999999999
21
-0.75000000000001454
31
0
0
LINE
5
185
100
AcDbEntity
8
0
100
AcDbLine
10
145.47399999999999
20
-16.250000000000014
30
0
11
145.47399999999999
21
14.680275710656858
31
0
0
ENDSEC
0
SECTION
2
OBJECTS
0
DICTIONARY
5
C
100
AcDbDictionary
3
ACAD_GROUP
350
D
3
ACAD_MLINESTYLE
350
17
0
DICTIONARY
5
D
100
AcDbDictionary
0
DICTIONARY
5
1A
330
C
100
AcDbDictionary
0
DICTIONARY
5
17
100
AcDbDictionary
0
ENDSEC
0
EOF
