0
SECTION
2
HEADER
9
$INSUNITS
70
4
9
$ACADVER
1
AC1014
9
$HANDSEED
5
FFFF
0
ENDSEC
0
SECTION
2
TABLES
0
TABLE
2
VPORT
5
8
100
AcDbSymbolTable
0
ENDTAB
0
TABLE
2
LTYPE
5
5
100
AcDbSymbolTable
0
LTYPE
5
14
100
AcDbSymbolTableRecord
100
AcDbLinetypeTableRecord
2
BYBLOCK
70
0
0
LTYPE
5
15
100
AcDbSymbolTableRecord
100
AcDbLinetypeTableRecord
2
BYLAYER
70
0
0
ENDTAB
0
TABLE
2
LAYER
5
2
100
AcDbSymbolTable
70
2
0
LAYER
5
50
100
AcDbSymbolTableRecord
100
AcDbLayerTableRecord
2
0
70
0
6
CONTINUOUS
0
ENDTAB
0
TABLE
2
STYLE
5
3
100
AcDbSymbolTable
70
1
0
STYLE
5
11
100
AcDbSymbolTableRecord
100
AcDbTextStyleTableRecord
2
STANDARD
70
0
0
ENDTAB
0
TABLE
2
VIEW
5
6
100
AcDbSymbolTable
70
0
0
ENDTAB
0
TABLE
2
UCS
5
7
100
AcDbSymbolTable
70
0
0
ENDTAB
0
TABLE
2
APPID
5
9
100
AcDbSymbolTable
70
2
0
APPID
5
12
100
AcDbSymbolTableRecord
100
AcDbRegAppTableRecord
2
ACAD
70
0
0
ENDTAB
0
TABLE
2
DIMSTYLE
5
A
100
AcDbSymbolTable
70
1
0
ENDTAB
0
TABLE
2
BLOCK_RECORD
5
1
100
AcDbSymbolTable
70
1
0
BLOCK_RECORD
5
1F
100
AcDbSymbolTableRecord
100
AcDbBlockTableRecord
2
*MODEL_SPACE
0
BLOCK_RECORD
5
1B
100
AcDbSymbolTableRecord
100
AcDbBlockTableRecord
2
*PAPER_SPACE
0
ENDTAB
0
ENDSEC
0
SECTION
2
BLOCKS
0
BLOCK
5
20
100
AcDbEntity
100
AcDbBlockBegin
2
*MODEL_SPACE
0
ENDBLK
5
21
100
AcDbEntity
100
AcDbBlockEnd
0
BLOCK
5
1C
100
AcDbEntity
100
AcDbBlockBegin
2
*PAPER_SPACE
0
ENDBLK
5
1D
100
AcDbEntity
100
AcDbBlockEnd
0
ENDSEC
0
SECTION
2
ENTITIES
0
LINE
5
100
100
AcDbEntity
8
0
100
AcDbLine
10
234.22438159242199
20
110.31767259895977
30
0
11
234.22438159242199
21
-74.682327401040226
31
0
0
LINE
5
101
100
AcDbEntity
8
0
100
AcDbLine
10
231.22438159242196
20
110.31767259895977
30
0
11
228.04938159242198
21
110.31767259895977
31
0
0
LINE
5
102
100
AcDbEntity
8
0
100
AcDbLine
10
228.04938159242198
20
110.31767259895977
30
0
11
228.04938159242198
21
105.31767259895977
31
0
0
LINE
5
103
100
AcDbEntity
8
0
100
AcDbLine
10
228.04938159242198
20
105.31767259895977
30
0
11
231.22438159242196
21
105.31767259895977
31
0
0
LINE
5
104
100
AcDbEntity
8
0
100
AcDbLine
10
228.04938159242198
20
90.317672598959774
30
0
11
228.04938159242198
21
85.317672598959774
31
0
0
LINE
5
105
100
AcDbEntity
8
0
100
AcDbLine
10
231.22438159242196
20
90.317672598959774
30
0
11
228.04938159242198
21
90.317672598959774
31
0
0
LINE
5
106
100
AcDbEntity
8
0
100
AcDbLine
10
228.04938159242198
20
85.317672598959774
30
0
11
231.22438159242196
21
85.317672598959774
31
0
0
LINE
5
107
100
AcDbEntity
8
0
100
AcDbLine
10
228.04938159242198
20
70.317672598959774
30
0
11
228.04938159242198
21
65.317672598959774
31
0
0
LINE
5
108
100
AcDbEntity
8
0
100
AcDbLine
10
231.22438159242196
20
70.317672598959774
30
0
11
228.04938159242198
21
70.317672598959774
31
0
0
LINE
5
109
100
AcDbEntity
8
0
100
AcDbLine
10
228.04938159242198
20
65.317672598959774
30
0
11
231.22438159242196
21
65.317672598959774
31
0
0
LINE
5
110
100
AcDbEntity
8
0
100
AcDbLine
10
228.04938159242198
20
50.317672598959774
30
0
11
228.04938159242198
21
45.317672598959774
31
0
0
LINE
5
111
100
AcDbEntity
8
0
100
AcDbLine
10
231.22438159242196
20
50.317672598959774
30
0
11
228.04938159242198
21
50.317672598959774
31
0
0
LINE
5
112
100
AcDbEntity
8
0
100
AcDbLine
10
228.04938159242198
20
45.317672598959774
30
0
11
231.22438159242196
21
45.317672598959774
31
0
0
LINE
5
113
100
AcDbEntity
8
0
100
AcDbLine
10
228.04938159242198
20
30.317672598959771
30
0
11
228.04938159242198
21
25.317672598959771
31
0
0
LINE
5
114
100
AcDbEntity
8
0
100
AcDbLine
10
231.22438159242196
20
30.317672598959771
30
0
11
228.04938159242198
21
30.317672598959771
31
0
0
LINE
5
115
100
AcDbEntity
8
0
100
AcDbLine
10
228.04938159242198
20
25.317672598959771
30
0
11
231.22438159242196
21
25.317672598959771
31
0
0
LINE
5
116
100
AcDbEntity
8
0
100
AcDbLine
10
228.04938159242198
20
10.317672598959771
30
0
11
228.04938159242198
21
5.3176725989597706
31
0
0
LINE
5
117
100
AcDbEntity
8
0
100
AcDbLine
10
231.22438159242196
20
10.317672598959771
30
0
11
228.04938159242198
21
10.317672598959771
31
0
0
LINE
5
118
100
AcDbEntity
8
0
100
AcDbLine
10
228.04938159242198
20
5.3176725989597706
30
0
11
231.22438159242196
21
5.3176725989597706
31
0
0
LINE
5
119
100
AcDbEntity
8
0
100
AcDbLine
10
228.04938159242198
20
-9.6823274010402294
30
0
11
228.04938159242198
21
-14.682327401040229
31
0
0
LINE
5
120
100
AcDbEntity
8
0
100
AcDbLine
10
231.22438159242196
20
-9.6823274010402294
30
0
11
228.04938159242198
21
-9.6823274010402294
31
0
0
LINE
5
121
100
AcDbEntity
8
0
100
AcDbLine
10
228.04938159242198
20
-14.682327401040229
30
0
11
231.22438159242196
21
-14.682327401040229
31
0
0
LINE
5
122
100
AcDbEntity
8
0
100
AcDbLine
10
228.04938159242198
20
-29.682327401040229
30
0
11
228.04938159242198
21
-34.682327401040226
31
0
0
LINE
5
123
100
AcDbEntity
8
0
100
AcDbLine
10
231.22438159242196
20
-29.682327401040229
30
0
11
228.04938159242198
21
-29.682327401040229
31
0
0
LINE
5
124
100
AcDbEntity
8
0
100
AcDbLine
10
228.04938159242198
20
-34.682327401040226
30
0
11
231.22438159242196
21
-34.682327401040226
31
0
0
LINE
5
125
100
AcDbEntity
8
0
100
AcDbLine
10
228.04938159242198
20
-49.682327401040226
30
0
11
228.04938159242198
21
-54.682327401040226
31
0
0
LINE
5
126
100
AcDbEntity
8
0
100
AcDbLine
10
231.22438159242196
20
-49.682327401040226
30
0
11
228.04938159242198
21
-49.682327401040226
31
0
0
LINE
5
127
100
AcDbEntity
8
0
100
AcDbLine
10
228.04938159242198
20
-54.682327401040226
30
0
11
231.22438159242196
21
-54.682327401040226
31
0
0
LINE
5
128
100
AcDbEntity
8
0
100
AcDbLine
10
228.04938159242198
20
-69.682327401040226
30
0
11
228.04938159242198
21
-74.682327401040226
31
0
0
LINE
5
129
100
AcDbEntity
8
0
100
AcDbLine
10
231.22438159242196
20
-69.682327401040226
30
0
11
228.04938159242198
21
-69.682327401040226
31
0
0
LINE
5
130
100
AcDbEntity
8
0
100
AcDbLine
10
228.04938159242198
20
-74.682327401040226
30
0
11
231.22438159242196
21
-74.682327401040226
31
0
0
LINE
5
131
100
AcDbEntity
8
0
100
AcDbLine
10
231.22438159242196
20
90.317672598959774
30
0
11
231.22438159242196
21
105.31767259895977
31
0
0
LINE
5
132
100
AcDbEntity
8
0
100
AcDbLine
10
231.22438159242196
20
70.317672598959774
30
0
11
231.22438159242196
21
85.317672598959774
31
0
0
LINE
5
133
100
AcDbEntity
8
0
100
AcDbLine
10
231.22438159242196
20
50.317672598959774
30
0
11
231.22438159242196
21
65.317672598959774
31
0
0
LINE
5
134
100
AcDbEntity
8
0
100
AcDbLine
10
231.22438159242196
20
30.317672598959771
30
0
11
231.22438159242196
21
45.317672598959774
31
0
0
LINE
5
135
100
AcDbEntity
8
0
100
AcDbLine
10
231.22438159242196
20
10.317672598959771
30
0
11
231.22438159242196
21
25.317672598959771
31
0
0
LINE
5
136
100
AcDbEntity
8
0
100
AcDbLine
10
231.22438159242196
20
-9.6823274010402294
30
0
11
231.22438159242196
21
5.3176725989597706
31
0
0
LINE
5
137
100
AcDbEntity
8
0
100
AcDbLine
10
231.22438159242196
20
-29.682327401040229
30
0
11
231.22438159242196
21
-14.682327401040229
31
0
0
LINE
5
138
100
AcDbEntity
8
0
100
AcDbLine
10
231.22438159242196
20
-69.682327401040226
30
0
11
231.22438159242196
21
-54.682327401040226
31
0
0
LINE
5
139
100
AcDbEntity
8
0
100
AcDbLine
10
231.22438159242196
20
-49.682327401040226
30
0
11
231.22438159242196
21
-34.682327401040226
31
0
0
LINE
5
140
100
AcDbEntity
8
0
100
AcDbLine
10
231.22438159242196
20
114.62609458386326
30
0
11
231.22438159242196
21
125.31767259895977
31
0
0
LINE
5
141
100
AcDbEntity
8
0
100
AcDbLine
10
231.22438159242196
20
125.31767259895977
30
0
11
234.22438159242199
21
125.31767259895977
31
0
0
LINE
5
142
100
AcDbEntity
8
0
100
AcDbLine
10
234.22438159242199
20
125.31767259895977
30
0
11
234.22438159242199
21
110.31767259895977
31
0
0
LINE
5
143
100
AcDbEntity
8
0
100
AcDbLine
10
231.22438159242196
20
-74.682327401040226
30
0
11
231.22438159242196
21
-77.682327401040226
31
0
0
LINE
5
144
100
AcDbEntity
8
0
100
AcDbLine
10
231.22438159242196
20
-77.682327401040226
30
0
11
234.22438159242199
21
-77.682327401040226
31
0
0
LINE
5
145
100
AcDbEntity
8
0
100
AcDbLine
10
234.22438159242199
20
-77.682327401040226
30
0
11
234.22438159242199
21
-74.682327401040226
31
0
0
LWPOLYLINE
5
146
100
AcDbEntity
8
0
100
AcDbPolyline
90
12
70
1
43
0.0
10
211.06974253227622
20
126.6642565571464
10
166.06974253227622
20
126.6642565571464
10
166.06974253227622
20
123.66425655714639
10
171.06974253227622
20
123.66425655714639
10
171.06974253227622
20
120.48925655714639
10
176.06974253227622
20
120.48925655714639
10
176.06974253227622
20
123.66425655714639
10
201.06974253227622
20
123.66425655714639
10
201.06974253227622
20
120.48925655714639
10
206.06974253227622
20
120.48925655714639
10
206.06974253227622
20
123.66425655714639
10
211.06974253227622
20
123.66425655714639
0
ENDSEC
0
SECTION
2
OBJECTS
0
DICTIONARY
5
C
100
AcDbDictionary
3
ACAD_GROUP
350
D
3
ACAD_MLINESTYLE
350
17
0
DICTIONARY
5
D
100
AcDbDictionary
0
DICTIONARY
5
1A
330
C
100
AcDbDictionary
0
DICTIONARY
5
17
100
AcDbDictionary
0
ENDSEC
0
EOF
