0
SECTION
2
HEADER
9
$INSUNITS
70
4
9
$ACADVER
1
AC1014
9
$HANDSEED
5
FFFF
0
ENDSEC
0
SECTION
2
TABLES
0
TABLE
2
VPORT
5
8
100
AcDbSymbolTable
0
ENDTAB
0
TABLE
2
LTYPE
5
5
100
AcDbSymbolTable
0
LTYPE
5
14
100
AcDbSymbolTableRecord
100
AcDbLinetypeTableRecord
2
BYBLOCK
70
0
0
LTYPE
5
15
100
AcDbSymbolTableRecord
100
AcDbLinetypeTableRecord
2
BYLAYER
70
0
0
ENDTAB
0
TABLE
2
LAYER
5
2
100
AcDbSymbolTable
70
2
0
LAYER
5
50
100
AcDbSymbolTableRecord
100
AcDbLayerTableRecord
2
0
70
0
6
CONTINUOUS
0
ENDTAB
0
TABLE
2
STYLE
5
3
100
AcDbSymbolTable
70
1
0
STYLE
5
11
100
AcDbSymbolTableRecord
100
AcDbTextStyleTableRecord
2
STANDARD
70
0
0
ENDTAB
0
TABLE
2
VIEW
5
6
100
AcDbSymbolTable
70
0
0
ENDTAB
0
TABLE
2
UCS
5
7
100
AcDbSymbolTable
70
0
0
ENDTAB
0
TABLE
2
APPID
5
9
100
AcDbSymbolTable
70
2
0
APPID
5
12
100
AcDbSymbolTableRecord
100
AcDbRegAppTableRecord
2
ACAD
70
0
0
ENDTAB
0
TABLE
2
DIMSTYLE
5
A
100
AcDbSymbolTable
70
1
0
ENDTAB
0
TABLE
2
BLOCK_RECORD
5
1
100
AcDbSymbolTable
70
1
0
BLOCK_RECORD
5
1F
100
AcDbSymbolTableRecord
100
AcDbBlockTableRecord
2
*MODEL_SPACE
0
BLOCK_RECORD
5
1B
100
AcDbSymbolTableRecord
100
AcDbBlockTableRecord
2
*PAPER_SPACE
0
ENDTAB
0
ENDSEC
0
SECTION
2
BLOCKS
0
BLOCK
5
20
100
AcDbEntity
100
AcDbBlockBegin
2
*MODEL_SPACE
0
ENDBLK
5
21
100
AcDbEntity
100
AcDbBlockEnd
0
BLOCK
5
1C
100
AcDbEntity
100
AcDbBlockBegin
2
*PAPER_SPACE
0
ENDBLK
5
1D
100
AcDbEntity
100
AcDbBlockEnd
0
ENDSEC
0
SECTION
2
ENTITIES
0
CIRCLE
5
100
100
AcDbEntity
8
0
100
AcDbCircle
10
259.5865
20
-115
30
0
40
1.7500000000000029
0
LWPOLYLINE
5
101
100
AcDbEntity
8
0
100
AcDbPolyline
90
4
70
1
43
0.0
10
269.68649811656314
20
-135.75
10
269.68649811656314
20
-140.75
10
263.33649811656306
20
-140.75
10
263.33649811656306
20
-135.75
0
LINE
5
102
100
AcDbEntity
8
0
100
AcDbLine
10
259.5865
20
-115
30
0
11
257.8365
21
-115
31
0
0
CIRCLE
5
103
100
AcDbEntity
8
0
100
AcDbCircle
10
264.923
20
-130
30
0
40
1.750000000000006
0
LWPOLYLINE
5
104
100
AcDbEntity
8
0
100
AcDbPolyline
90
4
70
1
43
0.0
10
269.68649811656314
20
-124.25
10
269.68649811656314
20
-119.25
10
263.33649811656306
20
-119.25
10
263.33649811656306
20
-124.25
0
CIRCLE
5
105
100
AcDbEntity
8
0
100
AcDbCircle
10
260.5865
20
-146
30
0
40
4.2000000000000055
0
CIRCLE
5
106
100
AcDbEntity
8
0
100
AcDbCircle
10
244.5865
20
-145
30
0
40
1.7499999999999971
0
LWPOLYLINE
5
107
100
AcDbEntity
8
0
100
AcDbPolyline
90
8
70
1
43
0.0
10
266.80374365272746
20
-106.69266461853965
10
223.53553390593277
20
-106.69266461853965
42
0.46705414024727326
10
216
20
-113.00000168383121
10
216
20
-150.08451918451692
42
0.34257013165853439
10
219.47288793048315
20
-154.55853681206608
10
267.29577174048694
20
-154.55853681206608
42
0.49553405390244343
10
273.173
20
-150.08452405257731
10
273.173
20
-111.40858645435534
42
0.32991475151237881
0
CIRCLE
5
108
100
AcDbEntity
8
0
100
AcDbCircle
10
244.5865
20
-130
30
0
40
7.7499999999999938
0
CIRCLE
5
109
100
AcDbEntity
8
0
100
AcDbCircle
10
229.5865
20
-115
30
0
40
1.7500000000000029
0
CIRCLE
5
110
100
AcDbEntity
8
0
100
AcDbCircle
10
228.5865
20
-146
30
0
40
4.2000000000000055
0
LWPOLYLINE
5
111
100
AcDbEntity
8
0
100
AcDbPolyline
90
4
70
1
43
0.0
10
219.48650188343686
20
-119.25
10
225.83650188343688
20
-119.25
10
225.83650188343688
20
-124.25
10
219.48650188343686
20
-124.25
0
LWPOLYLINE
5
112
100
AcDbEntity
8
0
100
AcDbPolyline
90
4
70
1
43
0.0
10
225.83650188343688
20
-140.75
10
225.83650188343688
20
-135.75
10
219.48650188343686
20
-135.75
10
219.48650188343686
20
-140.75
0
CIRCLE
5
113
100
AcDbEntity
8
0
100
AcDbCircle
10
224.25049999999999
20
-130
30
0
40
1.750000000000006
0
ENDSEC
0
SECTION
2
OBJECTS
0
DICTIONARY
5
C
100
AcDbDictionary
3
ACAD_GROUP
350
D
3
ACAD_MLINESTYLE
350
17
0
DICTIONARY
5
D
100
AcDbDictionary
0
DICTIONARY
5
1A
330
C
100
AcDbDictionary
0
DICTIONARY
5
17
100
AcDbDictionary
0
ENDSEC
0
EOF
