0
SECTION
2
HEADER
9
$INSUNITS
70
4
9
$ACADVER
1
AC1014
9
$HANDSEED
5
FFFF
0
ENDSEC
0
SECTION
2
TABLES
0
TABLE
2
VPORT
5
8
100
AcDbSymbolTable
0
ENDTAB
0
TABLE
2
LTYPE
5
5
100
AcDbSymbolTable
0
LTYPE
5
14
100
AcDbSymbolTableRecord
100
AcDbLinetypeTableRecord
2
BYBLOCK
70
0
0
LTYPE
5
15
100
AcDbSymbolTableRecord
100
AcDbLinetypeTableRecord
2
BYLAYER
70
0
0
ENDTAB
0
TABLE
2
LAYER
5
2
100
AcDbSymbolTable
70
2
0
LAYER
5
50
100
AcDbSymbolTableRecord
100
AcDbLayerTableRecord
2
0
70
0
6
CONTINUOUS
0
ENDTAB
0
TABLE
2
STYLE
5
3
100
AcDbSymbolTable
70
1
0
STYLE
5
11
100
AcDbSymbolTableRecord
100
AcDbTextStyleTableRecord
2
STANDARD
70
0
0
ENDTAB
0
TABLE
2
VIEW
5
6
100
AcDbSymbolTable
70
0
0
ENDTAB
0
TABLE
2
UCS
5
7
100
AcDbSymbolTable
70
0
0
ENDTAB
0
TABLE
2
APPID
5
9
100
AcDbSymbolTable
70
2
0
APPID
5
12
100
AcDbSymbolTableRecord
100
AcDbRegAppTableRecord
2
ACAD
70
0
0
ENDTAB
0
TABLE
2
DIMSTYLE
5
A
100
AcDbSymbolTable
70
1
0
ENDTAB
0
TABLE
2
BLOCK_RECORD
5
1
100
AcDbSymbolTable
70
1
0
BLOCK_RECORD
5
1F
100
AcDbSymbolTableRecord
100
AcDbBlockTableRecord
2
*MODEL_SPACE
0
BLOCK_RECORD
5
1B
100
AcDbSymbolTableRecord
100
AcDbBlockTableRecord
2
*PAPER_SPACE
0
ENDTAB
0
ENDSEC
0
SECTION
2
BLOCKS
0
BLOCK
5
20
100
AcDbEntity
100
AcDbBlockBegin
2
*MODEL_SPACE
0
ENDBLK
5
21
100
AcDbEntity
100
AcDbBlockEnd
0
BLOCK
5
1C
100
AcDbEntity
100
AcDbBlockBegin
2
*PAPER_SPACE
0
ENDBLK
5
1D
100
AcDbEntity
100
AcDbBlockEnd
0
ENDSEC
0
SECTION
2
ENTITIES
0
LINE
5
100
100
AcDbEntity
8
0
100
AcDbLine
10
-6.464466094067264
20
-108.70100000000001
30
0
11
36.521349570550406
21
-108.70100000000001
31
0
0
LINE
5
101
100
AcDbEntity
8
0
100
AcDbLine
10
39.173000000000009
20
-111.35265042944958
30
0
11
39.173000000000009
21
-149.46446609406729
31
0
0
LINE
5
102
100
AcDbEntity
8
0
100
AcDbLine
10
35.637466094067271
20
-153
30
0
11
-6.4644679775041638
21
-153
31
0
0
LINE
5
103
100
AcDbEntity
8
0
100
AcDbLine
10
-10
20
-149.46446421062737
30
0
11
-10
21
-112.23653390593273
31
0
0
CIRCLE
5
104
100
AcDbEntity
8
0
100
AcDbCircle
10
34.923000000000009
20
-130
30
0
40
1.750000000000006
0
CIRCLE
5
105
100
AcDbEntity
8
0
100
AcDbCircle
10
-5.7499999999999947
20
-130
30
0
40
1.750000000000006
0
CIRCLE
5
106
100
AcDbEntity
8
0
100
AcDbCircle
10
14.586500000000004
20
-130
30
0
40
7.7499999999999938
0
CIRCLE
5
107
100
AcDbEntity
8
0
100
AcDbCircle
10
29.586500000000004
20
-115
30
0
40
1.7500000000000029
0
CIRCLE
5
108
100
AcDbEntity
8
0
100
AcDbCircle
10
14.586500000000004
20
-145
30
0
40
1.7499999999999971
0
CIRCLE
5
109
100
AcDbEntity
8
0
100
AcDbCircle
10
30.586500000000004
20
-146
30
0
40
4.2000000000000055
0
CIRCLE
5
110
100
AcDbEntity
8
0
100
AcDbCircle
10
-1.4134999999999964
20
-146
30
0
40
4.2000000000000055
0
ARC
5
111
100
AcDbEntity
8
0
100
AcDbCircle
10
35.637466094067278
20
-149.46446609406726
30
0
40
3.5355339059327484
100
AcDbArc
50
269.99999999999989
51
360
0
ARC
5
112
100
AcDbEntity
8
0
100
AcDbCircle
10
36.07940783230886
20
-111.79459216769115
30
0
40
3.1250000000000004
100
AcDbArc
50
-8.1301023541557811
51
98.130102354155667
0
ARC
5
113
100
AcDbEntity
8
0
100
AcDbCircle
10
-6.464466094067248
20
-112.23653390593276
30
0
40
3.5355339059327484
100
AcDbArc
50
90.00000000000027
51
180
0
ARC
5
114
100
AcDbEntity
8
0
100
AcDbCircle
10
-6.464464210625338
20
-149.46446421062737
30
0
40
3.5355357893746584
100
AcDbArc
50
180
51
269.99993895514808
0
CIRCLE
5
115
100
AcDbEntity
8
0
100
AcDbCircle
10
-0.41349999999999554
20
-115
30
0
40
1.7500000000000029
0
LINE
5
116
100
AcDbEntity
8
0
100
AcDbLine
10
29.586500000000004
20
-115
30
0
11
27.836500000000001
21
-115
31
0
0
LINE
5
117
100
AcDbEntity
8
0
100
AcDbLine
10
-5.7499999999999947
20
-130
30
0
11
-5.7499999999999947
21
-123.25000007450581
31
0
0
LWPOLYLINE
5
118
100
AcDbEntity
8
0
100
AcDbPolyline
90
4
70
1
43
0.0
10
-7.337499999999995
20
-119.25
10
-4.1624999999999961
20
-119.25
10
-4.1624999999999961
20
-124.25
10
-7.337499999999995
20
-124.25
0
LINE
5
119
100
AcDbEntity
8
0
100
AcDbLine
10
-5.7499999999999947
20
-119.25
30
0
11
-5.7499999999999947
21
-122.25000005960464
31
0
0
LINE
5
120
100
AcDbEntity
8
0
100
AcDbLine
10
-5.7499999999999947
20
-130
30
0
11
-9.4999324743206728
21
-130
31
0
0
LINE
5
121
100
AcDbEntity
8
0
100
AcDbLine
10
14.586499058281554
20
-153
30
0
11
14.586499058281554
21
-148.00000220537186
31
0
0
LWPOLYLINE
5
122
100
AcDbEntity
8
0
100
AcDbPolyline
90
4
70
1
43
0.0
10
-7.337499999999995
20
-135.75
10
-7.337499999999995
20
-140.75
10
-4.1624999999999961
20
-140.75
10
-4.1624999999999961
20
-135.75
0
LWPOLYLINE
5
123
100
AcDbEntity
8
0
100
AcDbPolyline
90
4
70
1
43
0.0
10
36.510498116563099
20
-124.25
10
36.510498116563099
20
-119.25
10
33.335498116563102
20
-119.25
10
33.335498116563102
20
-124.25
0
LWPOLYLINE
5
124
100
AcDbEntity
8
0
100
AcDbPolyline
90
4
70
1
43
0.0
10
33.335498116563102
20
-135.75
10
36.510498116563099
20
-135.75
10
36.510498116563099
20
-140.75
10
33.335498116563109
20
-140.75
0
ENDSEC
0
SECTION
2
OBJECTS
0
DICTIONARY
5
C
100
AcDbDictionary
3
ACAD_GROUP
350
D
3
ACAD_MLINESTYLE
350
17
0
DICTIONARY
5
D
100
AcDbDictionary
0
DICTIONARY
5
1A
330
C
100
AcDbDictionary
0
DICTIONARY
5
17
100
AcDbDictionary
0
ENDSEC
0
EOF
