0
SECTION
2
HEADER
9
$INSUNITS
70
4
9
$ACADVER
1
AC1014
9
$HANDSEED
5
FFFF
0
ENDSEC
0
SECTION
2
TABLES
0
TABLE
2
VPORT
5
8
100
AcDbSymbolTable
0
ENDTAB
0
TABLE
2
LTYPE
5
5
100
AcDbSymbolTable
0
LTYPE
5
14
100
AcDbSymbolTableRecord
100
AcDbLinetypeTableRecord
2
BYBLOCK
70
0
0
LTYPE
5
15
100
AcDbSymbolTableRecord
100
AcDbLinetypeTableRecord
2
BYLAYER
70
0
0
ENDTAB
0
TABLE
2
LAYER
5
2
100
AcDbSymbolTable
70
2
0
LAYER
5
50
100
AcDbSymbolTableRecord
100
AcDbLayerTableRecord
2
0
70
0
6
CONTINUOUS
0
ENDTAB
0
TABLE
2
STYLE
5
3
100
AcDbSymbolTable
70
1
0
STYLE
5
11
100
AcDbSymbolTableRecord
100
AcDbTextStyleTableRecord
2
STANDARD
70
0
0
ENDTAB
0
TABLE
2
VIEW
5
6
100
AcDbSymbolTable
70
0
0
ENDTAB
0
TABLE
2
UCS
5
7
100
AcDbSymbolTable
70
0
0
ENDTAB
0
TABLE
2
APPID
5
9
100
AcDbSymbolTable
70
2
0
APPID
5
12
100
AcDbSymbolTableRecord
100
AcDbRegAppTableRecord
2
ACAD
70
0
0
ENDTAB
0
TABLE
2
DIMSTYLE
5
A
100
AcDbSymbolTable
70
1
0
ENDTAB
0
TABLE
2
BLOCK_RECORD
5
1
100
AcDbSymbolTable
70
1
0
BLOCK_RECORD
5
1F
100
AcDbSymbolTableRecord
100
AcDbBlockTableRecord
2
*MODEL_SPACE
0
BLOCK_RECORD
5
1B
100
AcDbSymbolTableRecord
100
AcDbBlockTableRecord
2
*PAPER_SPACE
0
ENDTAB
0
ENDSEC
0
SECTION
2
BLOCKS
0
BLOCK
5
20
100
AcDbEntity
100
AcDbBlockBegin
2
*MODEL_SPACE
0
ENDBLK
5
21
100
AcDbEntity
100
AcDbBlockEnd
0
BLOCK
5
1C
100
AcDbEntity
100
AcDbBlockBegin
2
*PAPER_SPACE
0
ENDBLK
5
1D
100
AcDbEntity
100
AcDbBlockEnd
0
ENDSEC
0
SECTION
2
ENTITIES
0
LWPOLYLINE
5
100
100
AcDbEntity
8
0
100
AcDbPolyline
90
4
70
1
43
0.0
10
27.000000000000007
20
19.000000178813931
10
27.000000000000007
20
24.000000178813931
10
30.175000000000004
20
24.000000178813927
10
30.175000000000004
20
19.000000178813931
0
LWPOLYLINE
5
101
100
AcDbEntity
8
0
100
AcDbPolyline
90
4
70
1
43
0.0
10
4
20
27.000000163912773
10
4
20
30.175000163912774
10
-4
20
30.175000163912774
10
-4
20
27.000000163912773
0
CIRCLE
5
102
100
AcDbEntity
8
0
100
AcDbCircle
10
12.000000178813934
20
28.425000000000004
30
0
40
1.7500000000000013
0
LWPOLYLINE
5
103
100
AcDbEntity
8
0
100
AcDbPolyline
90
4
70
1
43
0.0
10
-27.00000016391278
20
3.9999999999999951
10
-30.175000163912781
20
3.9999999999999947
10
-30.175000163912781
20
-4.000000000000008
10
-27.00000016391278
20
-4.0000000000000071
0
LWPOLYLINE
5
104
100
AcDbEntity
8
0
100
AcDbPolyline
90
4
70
1
43
0.0
10
-30.175000000000004
20
-24.000000178813949
10
-30.175000000000004
20
-19.000000178813949
10
-27
20
-19.000000178813949
10
-27
20
-24.000000178813945
0
LWPOLYLINE
5
105
100
AcDbEntity
8
0
100
AcDbPolyline
90
4
70
1
43
0.0
10
-27.000000000000011
20
19.000000178813934
10
-27.000000000000011
20
24.000000178813934
10
-30.175000000000015
20
24.000000178813931
10
-30.175000000000015
20
19.000000178813934
0
LWPOLYLINE
5
106
100
AcDbEntity
8
0
100
AcDbPolyline
90
4
70
1
43
0.0
10
24.000000178813934
20
27
10
24.000000178813934
20
30.175000000000001
10
19.000000178813934
20
30.175000000000001
10
19.000000178813934
20
27
0
CIRCLE
5
107
100
AcDbEntity
8
0
100
AcDbCircle
10
-12.000000178813934
20
28.425000000000004
30
0
40
1.7500000000000013
0
LWPOLYLINE
5
108
100
AcDbEntity
8
0
100
AcDbPolyline
90
4
70
1
43
0.0
10
-24.000000178813934
20
27
10
-24.000000178813934
20
30.175000000000001
10
-19.000000178813934
20
30.175000000000001
10
-19.000000178813934
20
27
0
CIRCLE
5
109
100
AcDbEntity
8
0
100
AcDbCircle
10
-28.425000000000004
20
-12.000000178813943
30
0
40
1.7500000000000013
0
CIRCLE
5
110
100
AcDbEntity
8
0
100
AcDbCircle
10
-28.425000000000011
20
12.000000178813931
30
0
40
1.7500000000000013
0
CIRCLE
5
111
100
AcDbEntity
8
0
100
AcDbCircle
10
28.425000000000008
20
12.000000178813927
30
0
40
1.7500000000000013
0
CIRCLE
5
112
100
AcDbEntity
8
0
100
AcDbCircle
10
28.424999999999997
20
-12.000000178813941
30
0
40
1.7500000000000013
0
LWPOLYLINE
5
113
100
AcDbEntity
8
0
100
AcDbPolyline
90
4
70
1
43
0.0
10
35.174999999999997
20
35.174999999999997
10
-35.174999999999997
20
35.174999999999997
10
-35.174999999999997
20
-35.174999999999997
10
35.174999999999997
20
-35.174999999999997
0
LWPOLYLINE
5
114
100
AcDbEntity
8
0
100
AcDbPolyline
90
4
70
1
43
0.0
10
27.000000163912773
20
-4.0000000000000062
10
30.175000163912774
20
-4.0000000000000071
10
30.175000163912774
20
3.9999999999999938
10
27.000000163912773
20
3.9999999999999942
0
LWPOLYLINE
5
115
100
AcDbEntity
8
0
100
AcDbPolyline
90
4
70
1
43
0.0
10
26.999999999999996
20
-24.000000178813941
10
30.174999999999997
20
-24.000000178813945
10
30.174999999999997
20
-19.000000178813941
10
26.999999999999996
20
-19.000000178813941
0
LINE
5
116
100
AcDbEntity
8
0
100
AcDbLine
10
35
20
-44.5
30
0
11
35.174999999999997
21
-44.5
31
0
0
CIRCLE
5
117
100
AcDbEntity
8
0
100
AcDbCircle
10
9.9999999999999964
20
-1.4260000000000006
30
0
40
1.7500000000000013
0
CIRCLE
5
118
100
AcDbEntity
8
0
100
AcDbCircle
10
-9.9999998211860657
20
-1.4260000000000006
30
0
40
1.7500000000000013
0
CIRCLE
5
119
100
AcDbEntity
8
0
100
AcDbCircle
10
10.000000178813934
20
15.574000000000002
30
0
40
1.7500000000000013
0
CIRCLE
5
120
100
AcDbEntity
8
0
100
AcDbCircle
10
-9.9999998211860657
20
15.574000000000002
30
0
40
1.7500000000000013
0
LINE
5
121
100
AcDbEntity
8
0
100
AcDbLine
10
-9.9999998211860657
20
15.574000000000002
30
0
11
9.9999999999999964
21
-1.4260000000000006
31
0
0
LINE
5
122
100
AcDbEntity
8
0
100
AcDbLine
10
-9.9999998211860657
20
-1.4260000000000006
30
0
11
10.000000178813934
21
15.574000000000002
31
0
0
LINE
5
123
100
AcDbEntity
8
0
100
AcDbLine
10
-27
20
-24.000000178813945
30
0
11
12.263105752576934
21
-24.000000178813892
31
0
0
LINE
5
124
100
AcDbEntity
8
0
100
AcDbLine
10
10.000000178813934
20
17.324000000000002
30
0
11
-5.000000074505806
21
17.324000000000002
31
0
0
ENDSEC
0
SECTION
2
OBJECTS
0
DICTIONARY
5
C
100
AcDbDictionary
3
ACAD_GROUP
350
D
3
ACAD_MLINESTYLE
350
17
0
DICTIONARY
5
D
100
AcDbDictionary
0
DICTIONARY
5
1A
330
C
100
AcDbDictionary
0
DICTIONARY
5
17
100
AcDbDictionary
0
ENDSEC
0
EOF
