0
SECTION
2
HEADER
9
$INSUNITS
70
4
9
$ACADVER
1
AC1014
9
$HANDSEED
5
FFFF
0
ENDSEC
0
SECTION
2
TABLES
0
TABLE
2
VPORT
5
8
100
AcDbSymbolTable
0
ENDTAB
0
TABLE
2
LTYPE
5
5
100
AcDbSymbolTable
0
LTYPE
5
14
100
AcDbSymbolTableRecord
100
AcDbLinetypeTableRecord
2
BYBLOCK
70
0
0
LTYPE
5
15
100
AcDbSymbolTableRecord
100
AcDbLinetypeTableRecord
2
BYLAYER
70
0
0
ENDTAB
0
TABLE
2
LAYER
5
2
100
AcDbSymbolTable
70
2
0
LAYER
5
50
100
AcDbSymbolTableRecord
100
AcDbLayerTableRecord
2
0
70
0
6
CONTINUOUS
0
ENDTAB
0
TABLE
2
STYLE
5
3
100
AcDbSymbolTable
70
1
0
STYLE
5
11
100
AcDbSymbolTableRecord
100
AcDbTextStyleTableRecord
2
STANDARD
70
0
0
ENDTAB
0
TABLE
2
VIEW
5
6
100
AcDbSymbolTable
70
0
0
ENDTAB
0
TABLE
2
UCS
5
7
100
AcDbSymbolTable
70
0
0
ENDTAB
0
TABLE
2
APPID
5
9
100
AcDbSymbolTable
70
2
0
APPID
5
12
100
AcDbSymbolTableRecord
100
AcDbRegAppTableRecord
2
ACAD
70
0
0
ENDTAB
0
TABLE
2
DIMSTYLE
5
A
100
AcDbSymbolTable
70
1
0
ENDTAB
0
TABLE
2
BLOCK_RECORD
5
1
100
AcDbSymbolTable
70
1
0
BLOCK_RECORD
5
1F
100
AcDbSymbolTableRecord
100
AcDbBlockTableRecord
2
*MODEL_SPACE
0
BLOCK_RECORD
5
1B
100
AcDbSymbolTableRecord
100
AcDbBlockTableRecord
2
*PAPER_SPACE
0
ENDTAB
0
ENDSEC
0
SECTION
2
BLOCKS
0
BLOCK
5
20
100
AcDbEntity
100
AcDbBlockBegin
2
*MODEL_SPACE
0
ENDBLK
5
21
100
AcDbEntity
100
AcDbBlockEnd
0
BLOCK
5
1C
100
AcDbEntity
100
AcDbBlockBegin
2
*PAPER_SPACE
0
ENDBLK
5
1D
100
AcDbEntity
100
AcDbBlockEnd
0
ENDSEC
0
SECTION
2
ENTITIES
0
LINE
5
100
100
AcDbEntity
8
0
100
AcDbLine
10
10.749999999999996
20
-23.5
30
0
11
11.750361617784698
21
-23.5
31
0
0
LINE
5
101
100
AcDbEntity
8
0
100
AcDbLine
10
68.5
20
23.5
30
0
11
70.75
21
23.5
31
0
0
LINE
5
102
100
AcDbEntity
8
0
100
AcDbLine
10
68.5
20
26.675000000000001
30
0
11
68.5
21
23.5
31
0
0
LINE
5
103
100
AcDbEntity
8
0
100
AcDbLine
10
63.5
20
26.675000000000001
30
0
11
68.5
21
26.675000000000001
31
0
0
LINE
5
104
100
AcDbEntity
8
0
100
AcDbLine
10
-6.7500000000000018
20
17
30
0
11
-6.7500000000000018
21
23.5
31
0
0
LINE
5
105
100
AcDbEntity
8
0
100
AcDbLine
10
-8.0000000000000018
20
13.499999999999998
30
0
11
-8.0000000000000018
21
17
31
0
0
LINE
5
106
100
AcDbEntity
8
0
100
AcDbLine
10
-6.7500000000000018
20
13.499999999999998
30
0
11
-8.0000000000000018
21
13.499999999999998
31
0
0
LINE
5
107
100
AcDbEntity
8
0
100
AcDbLine
10
-2.0000000000000009
20
17
30
0
11
-2.0000000000000009
21
13.499999999999998
31
0
0
LINE
5
108
100
AcDbEntity
8
0
100
AcDbLine
10
-10.75
20
-23.5
30
0
11
-11.750000000000005
21
-23.5
31
0
0
LINE
5
109
100
AcDbEntity
8
0
100
AcDbLine
10
-21.750000000000004
20
-23.5
30
0
11
-21.750000000000004
21
-18.5
31
0
0
LINE
5
110
100
AcDbEntity
8
0
100
AcDbLine
10
63.5
20
23.5
30
0
11
63.5
21
26.675000000000001
31
0
0
LINE
5
111
100
AcDbEntity
8
0
100
AcDbLine
10
-11.750000000000005
20
-23.5
30
0
11
-21.750000000000004
21
-23.5
31
0
0
LINE
5
112
100
AcDbEntity
8
0
100
AcDbLine
10
61.587500000000006
20
23.5
30
0
11
61.587500000000006
21
0.99999999999999867
31
0
0
LINE
5
113
100
AcDbEntity
8
0
100
AcDbLine
10
-3.2500000000000018
20
13.499999999999998
30
0
11
-3.2500000000000018
21
9.5
31
0
0
LINE
5
114
100
AcDbEntity
8
0
100
AcDbLine
10
-3.2500000000000018
20
9.5
30
0
11
-6.7500000000000018
21
9.5
31
0
0
LINE
5
115
100
AcDbEntity
8
0
100
AcDbLine
10
-3.2500000000000018
20
17
30
0
11
-2.0000000000000009
21
17
31
0
0
LINE
5
116
100
AcDbEntity
8
0
100
AcDbLine
10
-6.7500000000000018
20
9.5
30
0
11
-6.7500000000000018
21
13.499999999999998
31
0
0
LINE
5
117
100
AcDbEntity
8
0
100
AcDbLine
10
11.750000000000005
20
-23.5
30
0
11
21.750000000000004
21
-23.5
31
0
0
LINE
5
118
100
AcDbEntity
8
0
100
AcDbLine
10
21.750000000000004
20
-23.5
30
0
11
21.750000000000004
21
-18.5
31
0
0
LINE
5
119
100
AcDbEntity
8
0
100
AcDbLine
10
-2.0000000000000009
20
13.499999999999998
30
0
11
-3.2500000000000018
21
13.499999999999998
31
0
0
LINE
5
120
100
AcDbEntity
8
0
100
AcDbLine
10
61.587500000000006
20
0.99999999999999867
30
0
11
60
21
0.99999999999999867
31
0
0
LINE
5
121
100
AcDbEntity
8
0
100
AcDbLine
10
-8.0000000000000018
20
17
30
0
11
-6.7500000000000018
21
17
31
0
0
LINE
5
122
100
AcDbEntity
8
0
100
AcDbLine
10
-3.2500000000000018
20
23.5
30
0
11
-3.2500000000000018
21
17
31
0
0
LINE
5
123
100
AcDbEntity
8
0
100
AcDbLine
10
48.249999999999993
20
-23.5
30
0
11
53.999999910593033
21
-19.000000283122063
31
0
0
LINE
5
124
100
AcDbEntity
8
0
100
AcDbLine
10
-3.2500000000000018
20
23.5
30
0
11
3.2499999999999973
21
23.5
31
0
0
LINE
5
125
100
AcDbEntity
8
0
100
AcDbLine
10
11.750000000000005
20
-23.5
30
0
11
6.0000000894069672
21
-19.000000283122063
31
0
0
LINE
5
126
100
AcDbEntity
8
0
100
AcDbLine
10
66.000000089406967
20
-19.000000283122063
30
0
11
61.587500000000006
21
-19.000000283122063
31
0
0
LINE
5
127
100
AcDbEntity
8
0
100
AcDbLine
10
70.75
20
23.5
30
0
11
71.75
21
23.5
31
0
0
LINE
5
128
100
AcDbEntity
8
0
100
AcDbLine
10
61.587500000000006
20
23.5
30
0
11
63.5
21
23.5
31
0
0
LINE
5
129
100
AcDbEntity
8
0
100
AcDbLine
10
56.5
20
23.5
30
0
11
58.412499999999994
21
23.5
31
0
0
LINE
5
130
100
AcDbEntity
8
0
100
AcDbLine
10
58.412499999999994
20
23.5
30
0
11
58.412499999999994
21
1.0000000000000009
31
0
0
LINE
5
131
100
AcDbEntity
8
0
100
AcDbLine
10
49.25
20
23.5
30
0
11
48.249999999999993
21
23.5
31
0
0
LINE
5
132
100
AcDbEntity
8
0
100
AcDbLine
10
48.249999999999993
20
-23.5
30
0
11
38.25
21
-23.5
31
0
0
LINE
5
133
100
AcDbEntity
8
0
100
AcDbLine
10
38.25
20
-23.5
30
0
11
38.25
21
-18.5
31
0
0
LINE
5
134
100
AcDbEntity
8
0
100
AcDbLine
10
9.7499999999999982
20
23.5
30
0
11
10.749999999999996
21
23.5
31
0
0
LINE
5
135
100
AcDbEntity
8
0
100
AcDbLine
10
-11.750000000000005
20
23.5
30
0
11
-11.750000000000005
21
-8.4893102010921933
31
0
0
LINE
5
136
100
AcDbEntity
8
0
100
AcDbLine
10
-10.750000000000004
20
23.5
30
0
11
-6.7500000000000018
21
23.5
31
0
0
LINE
5
137
100
AcDbEntity
8
0
100
AcDbLine
10
53.999999910593033
20
-19.000000283122063
30
0
11
58.412499999999994
21
-19.000000283122063
31
0
0
LINE
5
138
100
AcDbEntity
8
0
100
AcDbLine
10
56.5
20
23.5
30
0
11
56.75
21
23.5
31
0
0
LINE
5
139
100
AcDbEntity
8
0
100
AcDbLine
10
1.5874999999999997
20
-19.000000283122063
30
0
11
1.5874999999999997
21
0.99999971687793288
31
0
0
LINE
5
140
100
AcDbEntity
8
0
100
AcDbLine
10
48.249999999999993
20
23.5
30
0
11
48.249999999999993
21
-8.4893102010921933
31
0
0
LINE
5
141
100
AcDbEntity
8
0
100
AcDbLine
10
10.749999999999996
20
23.5
30
0
11
11.749999999999998
21
23.5
31
0
0
LINE
5
142
100
AcDbEntity
8
0
100
AcDbLine
10
1.5874999999999997
20
0.99999971687793288
30
0
11
0
21
0.99999971687793288
31
0
0
LINE
5
143
100
AcDbEntity
8
0
100
AcDbLine
10
38.25
20
-18.5
30
0
11
48.249999999999993
21
-8.4893102010921933
31
0
0
LINE
5
144
100
AcDbEntity
8
0
100
AcDbLine
10
71.75
20
-23.5
30
0
11
81.75
21
-23.5
31
0
0
LINE
5
145
100
AcDbEntity
8
0
100
AcDbLine
10
-1.5874999999999997
20
-19.000000283122063
30
0
11
-1.5874999999999997
21
0.9999997168779351
31
0
0
LINE
5
146
100
AcDbEntity
8
0
100
AcDbLine
10
81.75
20
-18.5
30
0
11
71.75
21
-8.4893102010921933
31
0
0
LINE
5
147
100
AcDbEntity
8
0
100
AcDbLine
10
71.75
20
23.5
30
0
11
71.75
21
-8.4893102010921933
31
0
0
LINE
5
148
100
AcDbEntity
8
0
100
AcDbLine
10
70.75
20
-23.5
30
0
11
71.750361617784705
21
-23.5
31
0
0
LINE
5
149
100
AcDbEntity
8
0
100
AcDbLine
10
-21.750000000000004
20
-18.5
30
0
11
-11.750000000000005
21
-8.4893102010921933
31
0
0
LINE
5
150
100
AcDbEntity
8
0
100
AcDbLine
10
49.25
20
-23.5
30
0
11
48.249999999999993
21
-23.5
31
0
0
LINE
5
151
100
AcDbEntity
8
0
100
AcDbLine
10
58.412499999999994
20
1.0000000000000009
30
0
11
60
21
1.0000000000000009
31
0
0
LINE
5
152
100
AcDbEntity
8
0
100
AcDbLine
10
-10.750000000000004
20
23.5
30
0
11
-11.750000000000005
21
23.5
31
0
0
LINE
5
153
100
AcDbEntity
8
0
100
AcDbLine
10
11.749999999999998
20
23.5
30
0
11
11.750000000000005
21
-8.4893102010921933
31
0
0
LINE
5
154
100
AcDbEntity
8
0
100
AcDbLine
10
-1.5874999999999997
20
0.9999997168779351
30
0
11
0
21
0.9999997168779351
31
0
0
LINE
5
155
100
AcDbEntity
8
0
100
AcDbLine
10
81.75
20
-23.5
30
0
11
81.75
21
-18.5
31
0
0
LINE
5
156
100
AcDbEntity
8
0
100
AcDbLine
10
21.750000000000004
20
-18.5
30
0
11
11.750000000000005
21
-8.4893102010921933
31
0
0
LINE
5
157
100
AcDbEntity
8
0
100
AcDbLine
10
71.75
20
-23.5
30
0
11
66.000000089406967
21
-19.000000283122063
31
0
0
LINE
5
158
100
AcDbEntity
8
0
100
AcDbLine
10
6.0000000894069672
20
-19.000000283122063
30
0
11
1.5874999999999997
21
-19.000000283122063
31
0
0
LINE
5
159
100
AcDbEntity
8
0
100
AcDbLine
10
-6.0000000894069672
20
-19.000000283122063
30
0
11
-1.5874999999999997
21
-19.000000283122063
31
0
0
LINE
5
160
100
AcDbEntity
8
0
100
AcDbLine
10
58.412499999999994
20
-19.000000283122063
30
0
11
61.587500000000006
21
-19.000000283122063
31
0
0
LINE
5
161
100
AcDbEntity
8
0
100
AcDbLine
10
-11.750000000000005
20
-23.5
30
0
11
-6.0000000894069672
21
-19.000000283122063
31
0
0
LINE
5
162
100
AcDbEntity
8
0
100
AcDbLine
10
3.2499999999999973
20
23.5
30
0
11
4.7499999999999982
21
23.5
31
0
0
LINE
5
163
100
AcDbEntity
8
0
100
AcDbLine
10
56.5
20
23.5
30
0
11
55.5
21
23.5
31
0
0
LINE
5
164
100
AcDbEntity
8
0
100
AcDbLine
10
9.7499999999999982
20
23.5
30
0
11
9.7499999999999982
21
26.675000000000001
31
0
0
LINE
5
165
100
AcDbEntity
8
0
100
AcDbLine
10
9.7499999999999982
20
26.675000000000001
30
0
11
4.7499999999999982
21
26.675000000000001
31
0
0
LINE
5
166
100
AcDbEntity
8
0
100
AcDbLine
10
4.7499999999999982
20
26.675000000000001
30
0
11
4.7499999999999982
21
23.5
31
0
0
LINE
5
167
100
AcDbEntity
8
0
100
AcDbLine
10
55.5
20
9.5
30
0
11
52
21
9.5
31
0
0
LINE
5
168
100
AcDbEntity
8
0
100
AcDbLine
10
56.75
20
16.675000000000001
30
0
11
56.75
21
13.5
31
0
0
LINE
5
169
100
AcDbEntity
8
0
100
AcDbLine
10
50.75
20
13.5
30
0
11
50.75
21
16.675000000000001
31
0
0
LINE
5
170
100
AcDbEntity
8
0
100
AcDbLine
10
50.75
20
16.675000000000001
30
0
11
52
21
16.675000000000001
31
0
0
LINE
5
171
100
AcDbEntity
8
0
100
AcDbLine
10
55.5
20
16.675000000000001
30
0
11
56.75
21
16.675000000000001
31
0
0
LINE
5
172
100
AcDbEntity
8
0
100
AcDbLine
10
52
20
9.5
30
0
11
52
21
13.5
31
0
0
LINE
5
173
100
AcDbEntity
8
0
100
AcDbLine
10
52
20
16.675000000000001
30
0
11
52
21
23.5
31
0
0
LINE
5
174
100
AcDbEntity
8
0
100
AcDbLine
10
55.5
20
23.5
30
0
11
55.5
21
16.675000000000001
31
0
0
LINE
5
175
100
AcDbEntity
8
0
100
AcDbLine
10
55.5
20
13.5
30
0
11
55.5
21
9.5
31
0
0
LINE
5
176
100
AcDbEntity
8
0
100
AcDbLine
10
56.75
20
13.5
30
0
11
55.5
21
13.5
31
0
0
LINE
5
177
100
AcDbEntity
8
0
100
AcDbLine
10
52
20
13.5
30
0
11
50.75
21
13.5
31
0
0
LINE
5
178
100
AcDbEntity
8
0
100
AcDbLine
10
49.25
20
23.5
30
0
11
52
21
23.5
31
0
0
ENDSEC
0
SECTION
2
OBJECTS
0
DICTIONARY
5
C
100
AcDbDictionary
3
ACAD_GROUP
350
D
3
ACAD_MLINESTYLE
350
17
0
DICTIONARY
5
D
100
AcDbDictionary
0
DICTIONARY
5
1A
330
C
100
AcDbDictionary
0
DICTIONARY
5
17
100
AcDbDictionary
0
ENDSEC
0
EOF
